082413 HENRY LAU - 1-4-3 acoustic (Guitar Tab)

♫ - 1-4-3 by Henry Lau with Chan Yeol of EXO

image

For my friend Gwen!

Took 2-3 hours to tab this out, since it’s a really short acoustic version! I didn’t see any tabs or covers of it so hope I made it first this time as well hahaha.

1-4-3
Henry Lau with Chan Yeol of EXO, S.M.Entertainment
Tabbed by Vinh (http://vinhhamusic.tumblr.com)

EADGBe

Capo at 1


Intro (0:00-0:09)
|-----------0--------------0------|
|----3---3--3---3---3---3--3---3--|
|----0---0------0---0---0------0--|
|------x------x-------x------x----|
|--3---x-3----x---3---x-3----x----|
|------x------x-------x------x----|

|-----------2-------3---2--3------|
|----3---3--3---3---3---3--3------|
|----2---2------2---0---0--0------|
|------x------x-------x------x----|
|--2---x-2----x-------x------x----|
|------x------x---0---x-0----x----|


Verse (0:10-0:18)
|-----------0--------------0------|
|----3---3--3---3---3---3--3---3--|
|----0---0------0---0---0------0--|
|------x------x-------x------x----|
|--3---x-3----x---3---x-3----x----|
|------x------x-------x------x----|

|---------------------------------|
|----3---3--3---3----------3---3--|
|----2---2--0---0-------0--0---0--|
|------x------x-----4-x-2----x----|
|--2---x-2----x-------x------x----|
|------x------x---0---x-0----x----|
|-----------0-------3---2--3------|
|----1---1--1---1---3---3--3---3--|
|----0---0------0---2---2--2---2--|
|----2-x-2----x-2-0---x-0----x----|
|--0---x-0----x-------x------x----|
|------x------x-------x------x----|

|---------------------------------|
|----3---3--3---3----------3---3--|
|----2---2--0---0-------0--0---0--|
|------x------x-----4-x-2----x----|
|--2---x-2----x-------x------x----|
|------x------x---0---x-0----x----|


Pre-Chorus (0:26-0:45)
|-------------------------2---3----|
|--1------0---1----3------3-3-3-3--|
|--0--------0---0--2------0--------|
|--2----2----------4------0--------|
|--0---------------2----2-2--------|
|-------------------------0--------|

|----------3-----2-3--------3-----3-----3-3--|
|--1----1----3--------3--5--3---3-----3---3--|
|--0---------2-2------5--x--2-2-----2-----2--|
|--2--2------4--------5--6--0-------------0--|
|--0---------2--------3--4-------------------|
|--------------------------------------------|


Chorus (0:45-1:01)
|-----------0-------2---2--3------|
|----3---3--3---3---3---3--3---3--|
|----0---0------0--------------0--|
|------x------x-------x------x----|
|--3---x-3----x---3---x-3----x----|
|------x------x-------x------x----|

|-----------3-------2---2--3------|
|----3---3--3---3---3---3--3---3--|
|----2---2------2---0---0--0---0--|
|------x------x-------x------x----|
|--2---x-2----x-------x------x----|
|------x------x---0---x-0----x----|


|-----------3-------3---2--3------|
|----1---1--1---1---3---3--3---3--|
|----0---0------0---2---2--2---2--|
|----2-x-2----x-2-0---x-0----x----|
|--0---x-0----x-------x------x----|
|------x------x-------x------x----|

|-----------0---0----------0------|
|----3---3--3---3----------3---3--|
|----2---2--------------0------0--|
|------x------x-----4-x-2----x----|
|--2---x-2----x-------x------x----|
|------x------x---0---x-0----x----|


Bridge (1:02-1:18)
|-----------------------------------|
|--3-3-3-3-3-3-3-3-3-3-3-3-3-3-3-3--|
|--5-5-5-5-5-5-5-5-5-5-5-5-5-5-5-5--|
|--5-5-5-5-5-5-5-5-5-5-5-5-5-5-5-5--|
|--3-3-3-3-3-3-3-3-3-3-3-3-3-3-3-3--|
|-----------------------------------|
  . .   . .   .   . .   . .   .  

|-----------------------------------|
|--3-3-3-3-3-3-3-3------------------|
|--2-2-2-0-0-0-0-0-0-0-0-0-0-0-0-0--|
|--4-4-4-4-4-4-4-4-2-2-2-2-2-2-2-2--|
|--2-2-2-2-2-2-2-2-2-2-2-2-2-2-2-2--|
|------------------0-0-0-0-0-0-0-0--|
  . .   . .   .   . .   . .   . 

|-----------------------------------|
|--1-1-1-1-1-1-1-1-3-3-3-3-3-3-3-3--|
|--0-0-0-0-0-0-0-0-2-2-2-2-2-2-2-2--|
|--2-2-2-2-2-2-2-2-4-4-4-4-4-4-4-4--|
|--0-0-0-0-0-0-0-0-2-2-2-2-2-2-2-2--|
|-----------------------------------|
  . .   . .   .   . .   . .   . 

|------------------3-3-3-3----------|
|--3-3-3-3-3-3-3-3-3-3-3-3----------|
|--5-5-5-5-5-5-5-5-2-2-2-2----------|
|--5-5-5-5-5-5-5-5-0-0-0-0----------|
|--3-3-3-3-3-3-3-3------------------|
|-----------------------------------|
  . .   . .   .       .   


Outro (1:18-1:30)
|-----------0-------2---2--3------|
|----3---3--3---3---3---3--3---3--|
|----0---0------0--------------0--|
|------x------x-------x------x----|
|--3---x-3----x---3---x-3----x----|
|------x------x-------x------x----|

|--------3--2---2---2h3p2------|
|----3---3--3---3---------3----|
|----2----------------------0--|
|------x------x----------------|
|--2---x-2----x----------------|
|------x------x---0------------|

  1. imma-rolling-buffalo reblogged this from vinhhamusic
  2. pikachewiechu reblogged this from vinhhamusic
  3. antionettearriaga reblogged this from vinhhamusic
  4. yooongern reblogged this from vinhhamusic
  5. alekko reblogged this from vinhhamusic
  6. littlecherryxd reblogged this from vinhhamusic
  7. piggie-jy reblogged this from vinhhamusic
  8. sugarycosmos reblogged this from vinhhamusic